Letras y Acordes |  Acordes |  musica y amigos |  Afinador | 
 
num  A  B  C  D  E  F  G  H  I  J  K  L  M  N  O  P  Q  R  S  T  U  V  W  X  Y  Z  

 

Sácate la mierda - Carajo  

Links Patrocinados / Anuncios:

una_columnados_columnasaumentar_letrareducir_letravista_scrollver_impresionver_impresion_con_acordes | votar: ++++++---- | Puntaje actual: 6.00

Links Patrocinados

Links Patrocinados

calculadora de indice de masa corporal IMC

Links Patrocinados




Diccionario de Nombres



correccion de todas las versiones anterioeres

Hola soy Juan Jo tengo 17 años de cba este es mi 1er
Tab estoymuy orgulloso de el porque despues de tantas
luchas este es la version 100% correcta, no como otras
que dicen que esta + o - pero que suenan, nop esta es
la origuinal como la tocan ellos, la verdad es que se
hace dificil bajar estos temas porque nadie los saca
bien, hai versiones que suenan mas que otras pero esta
es la origuinal.
bueno me dejo de agrandar y ahi les esplico que onda
***********************************************************
Lo jodido de tocar estos temas (al igual que todos los
 temas de Carajo)es entender bien la afinacion que
usan ya que si no usamos la viola asi es imposible
encontrar los Riffs y las melodias ya que estan muy
desparramadas por el mastil.
PARA afinar:
la forma comun de afinar es en la escala de Mi :
E A D G B E
AHORA  hay que afinar en la escala de Do:
C F Bb Eb G C
como la afinacion es abierta se baja la 6ta y la 1ra
un tono completo: Bb F Bb Eb G Bb
Listo !

bueno ahora si paso por paso detallado:
 ------
|Letra:|
 ------
sin anestesia la rebelion despierta, en la calle se
manifiesta
la paciencia ya se acabo y nace la violencia
miro la tv y odio lo que veo, hay que meterlos a todos
presos
tanta propaganda para la corrupcion asesinando al
pueblo

mierda todo se degenera, la vieja trampa nos espera
sea como sea hay que escaparle, a toda esta manga de
charlatanes
mierda este caos apesta, y solo nuestra muerte
alimenta
pum pum, echando mal al que protesta
por sacar todo el dolor afuera


(esto se toca con los Armonicos Naturales y con un poco
 de DELAY asi les suena igual )
1)
Bb||-------------------------------------------------|
g ||--------5555---7777------------------------------|
Eb||--------------------5555----77777----------------| x3
Bb||-------------------------------------------------|
F ||-------------------------------------------------|
Bb||-------------------------------------------------|

Bb||---------------------------77777-----------------|
g ||--------5555---7777------------------------------|
Eb||--------------------5555-------------------------|
Bb||-------------------------------------------------|
F ||-------------------------------------------------|
Bb||-------------------------------------------------|

sin verguenza..
sin verguenza..
2)
Bb||-------------------------|
g ||-------------------------|
Eb||--44-4-4-4---------------|
Bb||--44-4-4-4--2-4-5--------| x3
F ||--22-2-2-2--2-4-5--------|
Bb||------------2-4-5--------|

Bb||-------------------------|
g ||-------------------------|
Eb||--444--------------------|
Bb||--444--------------------|
F ||--222--------------------|
Bb||-------------------------|

dejando escapar todo el odio que va pudriendo nuestra
fe
3)
Bb||------------------------------|
g ||------------------------------|
Eb||--4444----------------7-7-44--|
Bb||--4444--4-4--5--4--2--7-7-44--|
F ||--2222--4-4--5--4--2--5-5-22--|
Bb||--------4-4--5--4--2----------|

4)              pudriendo nuestra fe
Bb||-----------------------------|
g ||-----------------------------|
Eb||--------11-12--12-11--11-9-7-|
Bb||--9--9-----------------------|
F ||-----------------------------|
Bb||-----------------------------|

la sociedad es individual, la libertad es conicional
trabajar por una puta limosna, la economia nos robo la
 vida
4)
Bb||-----------------------------|
g ||-----------------------------|
Eb||--------11-12--12-11--11-9-7-|
Bb||--9--9-----------------------|
F ||-----------------------------|
Bb||-----------------------------|

rota quedo nuestra historia, se va con pena y sin
gloria
y como cuesta mantener la esperanza cuando la comida
no alcanza
ya no hay nada mas que esperar la honestidad no existe
mas
basta de cagarnos la cara, salimos a buscar lo que
nadie nos da..
1)
Bb||-------------------------------------------------|
g ||--------5555---7777------------------------------|
Eb||--------------------5555----77777----------------| x3
Bb||-------------------------------------------------|
F ||-------------------------------------------------|
Bb||-------------------------------------------------|

Bb||---------------------------77777-----------------|
g ||--------5555---7777------------------------------|
Eb||--------------------5555-------------------------|
Bb||-------------------------------------------------|
F ||-------------------------------------------------|
Bb||-------------------------------------------------|

sin verguenza..
sin verguenza..
2)
Bb||-------------------------|
g ||-------------------------|
Eb||--44-4-4-4---------------|
Bb||--44-4-4-4--2-4-5--------| x3
F ||--22-2-2-2--2-4-5--------|
Bb||------------2-4-5--------|

Bb||-------------------------|
g ||-------------------------|
Eb||--444--------------------|
Bb||--444--------------------|
F ||--222--------------------|
Bb||-------------------------|


dejando escapar todo el odio que va pudriendo nuestra
fe x2
3)
Bb||------------------------------|
g ||------------------------------|
Eb||--4444----------------7-7-44--|
Bb||--4444--4-4--5--4--2--7-7-44--|
F ||--2222--4-4--5--4--2--5-5-22--|
Bb||--------4-4--5--4--2----------|

              Nuestra fe
5)
Bb||-------------------------|
g ||-------------------------|
Eb||--44-44------------------|
Bb||--44-44------------------|
F ||--22-22------------------|
Bb||-------------------------|

               muerta
Bb||-------------------------|
g ||-------------------------|
Eb||--44-44------------------|
Bb||--44-44------------------|
F ||--22-22------------------|
Bb||-------------------------|

               Nuestra fe!!!!!
Bb||-------------------------|
g ||-------------------------|
Eb||--44-44------------------|
Bb||--44-44------------------|
F ||--22-22------------------|
Bb||-------------------------|

          AAAAHHHHH!!
Bb||-------------------------|
g ||-------------------------|
Eb||--44-44------------------|
Bb||--44-44------------------|
F ||--22-22------------------|
Bb||-------------------------|


nada mas, nada mas, queda por esperar..
nada mas que esperar
nada mas que esperar
nada mas que esperar
6) (esto se toca con un poco de Flanger para ambientar
un poco)
Bb||----------------------------------|
g ||----------------------------------|
Eb||---4-------6-------7----------9---|
Bb||--4--4----6--6----7--7----9----7--|
F ||-2----2--4----4--5----5--7-7----7-|
Bb||----------------------------------|

dejando escapar todo el odio que va pudriendo nuestra
fe x2
3)
Bb||------------------------------|
g ||------------------------------|
Eb||--4444----------------7-7-44--|
Bb||--4444--4-4--5--4--2--7-7-44--|
F ||--2222--4-4--5--4--2--5-5-22--|
Bb||--------4-4--5--4--2----------|

dejando escapar todo el odio que va x2
Bb||-----------------|
g ||-----------------|
Eb||--4444-----------|
Bb||--4444--4-4--5--4|
F ||--2222--4-4--5--4|
Bb||--------4-4--5--4|

dejando escapar todo el odio que va pudriendo nuestra
fe
Bb||------------------------------|
g ||------------------------------|
Eb||--4444----------------7-7-44--|
Bb||--4444--4-4--5--4--2--7-7-44--|
F ||--2222--4-4--5--4--2--5-5-22--|
Bb||--------4-4--5--4--2----------|


              Nuestra fe
5)
Bb||-------------------------|
g ||-------------------------|
Eb||--44-44------------------|
Bb||--44-44------------------|
F ||--22-22------------------|
Bb||-------------------------|

               muerta
Bb||-------------------------|
g ||-------------------------|
Eb||--44-44------------------|
Bb||--44-44------------------|
F ||--22-22------------------|
Bb||-------------------------|

               Nuestra fe!!!!!
Bb||-------------------------|
g ||-------------------------|
Eb||--44-44------------------|
Bb||--44-44------------------|
F ||--22-22------------------|
Bb||-------------------------|

          AAAAHHHHH!!
Bb||-------------------------|
g ||-------------------------|
Eb||--44-44------------------|
Bb||--44-44------------------|
F ||--22-22------------------|
Bb||-------------------------|
                                \
7)              BASTA           |
Bb||-------------------------|  |
g ||-------------------------|  |
Eb||-------------------------|  |
Bb||--11-11------------------|  |
F ||--11-11------------------|  |
Bb||--11-11------------------|  |
                                | x2
            Sacate la mierda    |
Bb||-------------------------|  |
g ||-------------------------|  |
Eb||-------------------------|  |
Bb||--11-11------------------|  |
F ||--11-11------------------|  |
Bb||--11-11------------------|  |
                                /
Bueno eso es todo el tema es bastante enquilombado y
seguro que les costara tocarlo especialmente  en una
banda porque ninguno hace la misma base en todo el
tema y tiene cambios bruscos de ritmos y velocidades
pero una ves que suena es una bomba Con mi banda Punto
de Poder lo hacemos y suena muy copado.

espero que no les cueste y que no sigan bajando
canciones mal sacadas cualquier cosa si quieren algun
otro tab de Carajo escribanme a juanjo1114@hotmail.com
nos vemos algun dia!!
AGUANTE CARAJO, LA RENGA, PUNTO DE PODER, DIVIDIDOS.
                                              Juan Jo





Esta es una transcripcion personal de un usuario de www.letrasyacordes.net - El material contenido en esta pagina es para exclusivo uso privado, quedando prohibida su reproduccion o retransmision, asi como su uso con fines comerciales.


Articulo Destacado: Un video de un muchacho virtuoso

 
Una verdadera joyita lo que hace este muchacho con la guitarra
 
Letras y Acordes punto net, el mejor sitio para encontrar y compartir letras de canciones, con sus correspondientes acordes para guitarra y piano. Registrate en nuestro foro y enterate cómo agregar tus propias transcripciones. No te olvides de votar para calificar la calidad de las letras
Palabras utilizadas para encontrar esta página:
Carajo, Sácate la mierda, letra de Sácate la mierda de Carajo, letras, letra, acordes, canciones, letras de cancion, lyrics, cancion, grupo, banda, cantante, tablatura, partitura, tocar con guitarra, tocar con piano, tocar con bajo, armónica, teclado, bajo, ejecutar, estudiar música
Ver más canciones de :

Carajo


 
{c} 2007 / 2011 - letrasyacordes.net