Letras y Acordes |  Acordes |  musica y amigos |  Afinador | 
 
num  A  B  C  D  E  F  G  H  I  J  K  L  M  N  O  P  Q  R  S  T  U  V  W  X  Y  Z  

 

EN DIBUJOS ANIMADOS - Gandhi  

Links Patrocinados / Anuncios:

una_columnados_columnasaumentar_letrareducir_letravista_scrollver_impresionver_impresion_con_acordes | votar: ++++++---- | Puntaje actual: 6.00

Links Patrocinados

Links Patrocinados

calculadora de indice de masa corporal IMC

Links Patrocinados




Diccionario de Nombres



Formato de la cancion:

Parte A x 2
Parte B con final 1
Parte B con final 2
Parte A x 2
Parte B con final 1
Parte B con final 2

Parte C con final 1 y toca LEAD 1 ensima
Parte C con final 2
Parte D x 2

Parte A x 2
Parte B con final 1
Parte B con final 2

Parte C con final 1 y toca LEAD 1 ensima
Parte C con final 2
Parte D x 4

Parte E x 8

Solo

Parte D x 4



PARTE A:


        Cm#7            Dmaj7(9)          Emaj7(9)
E-||------------------|-----------------|---------------------|-
B-||*----5------------|--6--------------|--7------------------|-
G-||-----4------------|--5--------------|--8------------------|-
D-||-----6------------|--4--------------|--6------------------|-
A-||*-4-------4--5----|-----------------|--7------------------|-
E-||------------------|-----------------|---------------------|-



E---------------------||
B--------------------*||
G---------------------||
D---------------------||
A--------------------*||
E---------------------||






PARTE B:

       B                Dmaj7(9)

E-||------------------|-----------------|-
B-||*----4------------|--5--------------|-
G-||-----4------------|--6--------------|-
D-||-----4------------|--4--------------|-
A-||*-2------2h4--5---|-----------------|-
E-||------------------|-----------------|-


Emaj7(9)
/----final 1--------------------------------
E---------------------|---------------------||
B--7------------------|--------------------*||
G--8------------------|---------------------||
D--6------------------|---------------------||
A--7------------------|--------------------*||
E---------------------|---------------------||


      Amaj7(#11)
   /----final 2--------------------------
E-||------------4-----|-----------------||
B-||--------------4---|----------------*||
G-||--------6-------6-|-----------------||
D-||-----6------------|-6---------------||
A-||------------------|----------------*||
E-||--5---------------|-----------------||



PARTE C:

    C#m7           Amaj7               B
                                            /---final 1---------
E-||-------------------|-------------------|-------------------||
B-||*-9------------5---|---------------7---|-------------------||
G-||--9------------6---|---------------8---|-------------------||
D-||--9------------6---|---------------9---|-------------------||
A-||*------------------|-------------------|-------------------||
E-||--9------------5---|---------------7---|-------------------||


    B               B7
    /---final 2----------------------------
E-||-------------------|-------------------||
B-||--(7)-----------7--|------------------*||
G-||--(8)-----------8--|-------------------||
D-||--(9)-----------7--|-------------------||
A-||-------------------|------------------*||
E-||--(7)-----------7--|-------------------||



PARTE D:

    E               A                        Dmaj7          C#m7
E-||-------------------|-------------------|-------------------|
B-||*------10--9---10--|-------------------|--7-------------5--|
G-||---9----9--9----9--|-------------------|--6-------------4--|
D-||---9----9--9----7--|-------------------|--7-------------6--|
A-||*--7----7--7-------|-------------------|--5-------------4--|
E-||-0--------------9--|-------------------|-------------------|


E--------------------||
B--------------------||
G--------------------||
D--------------------||
A--------------------||
E--------------------||



    Am7             C                         G            B7
E-||-------------------|-------------------|-------------------|--
B-||-----5---5------5--|-------5---65-----|-----3---------4---|--
G-||-----5---5h7----5--|-------5---5-------|-----4---------2---|--
D-||-----5---5------5--|-------5---5-------|-----5---------4---|--
A-||-----7---7------3--|-------3---3-------|--5------------2---|--
E-||-5-----------------|-------------------|-------------------|--


E-------------2----||
B-------4/5---2---*||
G-------2-----2----||
D-------4----------||
A-------2---------*||
E------------------||

PARTE E:

      C#m          Asus2                      B
E-||--4----4-------0---|---0----/----0-----|--2-----2-----2----|-
B-||*-5----5-------0---|---0----/----0-----|--4-----4-----4----|-
G-||--6----6-------2---|---2----/----2-----|--4-----4-----4----|-
D-||--6----6-------2---|---2----/----2-----|--4-----4-----4----|-
A-||*-4----4-------0---|---0----/----0-----|--2-----2-----2----|-
E-||-------------------|-------------------|-------------------|-


E--2----------------||
B--4---------------*||
G--4-----4----5-----||
D--4----------------||
A--2-----2----3----*||
E-------------------||






LEAD 1:

E-||-------------------|-------------------|-------------------|-
B-||---9----------9-10~|~--9----------9----|-------------------|-
G-||---------9h11------|--------9h11----11~|~------------------|-
D-||------11-----------|-----11------------|-------------------|-
A-||-------------------|-------------------|-------------------|-
E-||-------------------|-------------------|-------------------|-


 E-7/9--------7------||
 B-7/9--------7------||
 G-------------------||
 D-------------------||
 A-------------------||
 E-------------------||


E-||-------------------|-------------------|-------------------|-
B-||---9----------9-10~|~--9----------9----|-------------------|-
G-||---------9h11------|--------9h11----11~|~------------------|-
D-||------11-----------|-----11------------|-------------------|-
A-||-------------------|-------------------|-------------------|-
E-||-------------------|-------------------|-------------------|-


 E-------------11b12-||
 B12b14r12-----------||
 G-------------------||
 D-------------------||
 A-------------------||
 E-------------------||




SOLO:

                        C#m7             Amaj7                B
E-||-------------------|-------------------|-------------------|-
B-||-------------------|-------------------|-------------------|-
G-||---------------9-9~|~-----11b13------9-|-------11b13r119--|-
D-||-------6--9/11-----|-------------------|-------------------|-
A-||--7h9--------------|-------------------|-------------------|-
E-||-------------------|-------------------|-------------------|-


 E-------------------||
 B------------9------||
 G11------------11-9||
 D-------------------||
 A-------------------||
 E-------------------||



                        C#m7             Amaj7                B
E-||-------------------|-------------------|-------------------|
B-||-------------------|-------------------|-------------12-12~|
G-||-8----------------|-------------------|-----9-11/13-------|
D-||----9--------------|----------------11-|--11---------------|
A-||------9------11-11-|-11/12--11-11/12---|12-----------------|
E-||-------------------|-------------------|-------------------|


 E--------------------||
 B--------------------||
 G--------------------||
 D--------------------||
 A--------------------||
 E--------------------||


                        C#m7             Amaj7                B
E-||-----12-----12-----|---------12-----14-|-14b16-----------12|
B-||12h14--12h14--12h14|~--12h14-----14----|-------------------|
G-||-------------------|-------------------|-------------------|
D-||-------------------|-------------------|-------------------|
A-||-------------------|-------------------|-------------------|
E-||-------------------|-------------------|-------------------|

 Ep11-----------------||
 B---12---------------||
 G-----11-------------||
 -------13---11------||
 ---------14----12---||
 ------------------14||

                        C#m7             Amaj7
E-||-------------------|--------------------|--------------|
B-||-------------------|--------------------|--------------|
G-||-------------------|--------------------|-16--16-18b20-|
D-||-------------------|-----14-14--14-16/18|--------------|
A-||----------12-14p12-|14/16-----16--------|--------------|
E-||----12h14----------|--------------------|--------------|


   B
 E------------------------||
 B16-17-18-19-------------||
 G-----------18b20-18-14--||
 D----------------------16||
 A------------------------||
 E------------------------||










                            C#m7         Amaj7                B
E-||---------------------12|--16------------|------------------|
B-||-------------------14--|-------------17-|------------17b19-|
G-||-------------13-16-----|----------------|------------------|
D-||(16)------14-----------|----------------|------------------|
A-||----12-16--------------|----------------|------------------|
E-||-----------------------|----------------|------------------|


 E--------------------||
 B-------------19r17--||
 G--------------------||
 D--------------------||
 A--------------------||
 E--------------------||


                        C#m7             Amaj7
E-||-------------------|-------------------|--------------------------|
B-||--16---14---12-----|-------------------|--------------------------|
G-||-----------------14|^13--------------13|h14p13--------------------|
D-||-------------------|--------14---16----|------16-14h13----13------|
A-||-------------------|-------------------|---------------16----14/16|
E-||-------------------|-------------------|--------------------------|


   B
 E-------------||
 B-------------||
 G-------------||
 D-------------||
 A--14--14~~--||
 E-------------||


                        C#m7             Amaj7                     B
E-||---------------------|-----------------|---------------------11h|
B-||---------------------|--12-------------|-12----14-14~~-12-14----|
G-||----------------13-13|~~---13-11-12/13-|----13------------------|
D-||-------11-13h14------|-----------------|------------------------|
A-||-11-12---------------|-----------------|------------------------|
E-||---------------------|-----------------|------------------------|


  E12p11------------------------|
  B------14--12-------109----9-|
  G------------------------11---|
  D-----------------------------|
  A-----------------------------|
  E-----------------------------|






                                  C#m7
 E---------9---------9------------|---------------------------|
 B-------9---------9----12p9------|---------------------------|
 G-11b13-----11b13-----------11b13|r11--9----11----9~~--------|
 D--------------------------------|-------11----11----11p9----|
 A--------------------------------|-------------------------11|
 E--------------------------------|---------------------------|


   Amaj7                                   B
  E----------------------------------------9----------9-|
  B--------------------------------------9----------9---|
  G-----------------------------9--11b13------11b13-----|
  D-----------------9-----9--11-------------------------|
  A9p7----7---9/11----11-------------------------------|
  E------9----------------------------------------------|


                               E (PARTE D)
 E---------9-----------------12-|-(12)~~--||
 B-------9---------9--12/14--12-|-(12)~~--||
 G-11b13-----11b13--------------|---------||
 D------------------------------|---------||
 A------------------------------|---------||
 E------------------------------|---------||


Leyenda
-------
 h  = hammer-on
 p  = pull-off
 /  = deslizar
 ~  = vibrato
 b  = bend    (Ej --5b7-- en el 5to traste hace un bend de 1 tono)
 r  = release (Ej -5b7r5- en el 5to traste hace un bend de 1 tono
 y lo baja de vuelta)





Esta es una transcripcion personal de un usuario de www.letrasyacordes.net - El material contenido en esta pagina es para exclusivo uso privado, quedando prohibida su reproduccion o retransmision, asi como su uso con fines comerciales.


Articulo Destacado: Mantenimiento de la Guitarra - Cuerdas

 

 
fuente
 
Letras y Acordes punto net, el mejor sitio para encontrar y compartir letras de canciones, con sus correspondientes acordes para guitarra y piano. Registrate en nuestro foro y enterate cómo agregar tus propias transcripciones. No te olvides de votar para calificar la calidad de las letras
Palabras utilizadas para encontrar esta página:
Gandhi, EN DIBUJOS ANIMADOS, letra de EN DIBUJOS ANIMADOS de Gandhi, letras, letra, acordes, canciones, letras de cancion, lyrics, cancion, grupo, banda, cantante, tablatura, partitura, tocar con guitarra, tocar con piano, tocar con bajo, armónica, teclado, bajo, ejecutar, estudiar música
Ver más canciones de :

Gandhi


 
{c} 2007 / 2011 - letrasyacordes.net