Letras y Acordes |  Acordes |  musica y amigos |  Afinador | 
 
num  A  B  C  D  E  F  G  H  I  J  K  L  M  N  O  P  Q  R  S  T  U  V  W  X  Y  Z  

 

QUE SE JODA EL VIENTO - Marea  

Links Patrocinados / Anuncios:

una_columnados_columnasaumentar_letrareducir_letravista_scrollver_impresionver_impresion_con_acordes | votar: ++++++---- | Puntaje actual: 6.00

Links Patrocinados

Links Patrocinados

calculadora de indice de masa corporal IMC

Links Patrocinados




Diccionario de Nombres



Esta tablatura se la dedico a mi niña Carmen, que siempre me apoya en
todo lo que hago y queria agradecerselo de alguna manera :D
Tkm mi nen! jijiji y por otro lado a Kikon y Wiche, que me
animaron a empezar en el mundillo de la guitarra y el rock.

Weno, al tajo, la intro es bien sencillita, es un simple punteo
en la escala de La menor, algunos bends y slides, pero nada,
solo teneis que cogerle el truquillo al ritmo, ya vereis como
os sale de lujo :D .Os aconsejo que el Dm lo hagais en su forma
sin cejilla, a mi particularmente me suena mejor, pero experimentad.

Se acompaña con ( Am, Dm, G, Am, Dm, F/G )

------------------------------------------------------------
------------------------------------------------------------
------------------------------------------------------------
--7--7--9b--7--------10--9------10p9--9----7--7--9b--7------
---------------7/10---------10--------------------------7/8-
------------------------------------------------------------

------------------------
------------------------
------------------------
-10--9---------10--9----
--------10--7--------10-
------------------------

-------------------------------------------------------------
-------------------------------------------------------------
-------------------------------------------------------------
---7--7--9b--7----------10--9------10p9--9----7--7--9b--7--7-
------------------7/10---------10----------------------------
-------------------------------------------------------------

-----------------------------
-----------------------------
-----------------------------
----------------------7~~>---
-8--8--8--10--10--10---------
-----------------------------


Am                            G
Ponte el moño apretao sirena, que se joda el viento
Am                         F            G
Rompe las orquillas de espuma
Am                      G
Y dejame que te remache sonrisas de hierro
Am                          F            G
De esas que disipan las brumas
Am                       G
Y se que entre los males nos lloveran cristales
Am                        F            G
Yo ire descalzo y tu desnuda
                    Am                 G      Am      F     G
Al son del amor, del ronco tambor que toque la luna

Am  Dm  Am  G          |
                       } 2 Veces
Am  Dm  Am  F  G       |

Am                          G
Vamos a trepar a la copa de este sol de enero
Am                          F            G
Y a hacer un nido en su ramaje
Am                           G
Y alli reirnos viendo como a cada minutero
Am                   F            G
Se lo devora el oleaje
Am                           G
que cuando entre mis brazos, resuenen cañonazos
Am                          F          G
Yo ire perdido entre tus dunas
                Am                   G              Am       F       G
Dejándolo todo, quemando los tronos, donde reinen dudas...


ESTRIBILLO (F, C/G, Am, Dm)

F                   C/G                           Am                 Dm
Y bañate en mis ojos, que se joda el mar que quiera mecerte a su antojo...
F                   C/G                           Am
Si no somos nadie, nadie va a encontrar
F                   C/G                           Am              Dm
Y si a las heridas quiere exarles sal solo va a encontrarse cerrojos
F                   C/G           Am         F       G
Y las cicatrices de la soledad...

SOLO GUITARRA

~~> (dejar sonar)
b (bend)
, / (slides)
h (hammer), p (pull)
~ (Vibrato)

----------------------------------------------------------------
----------------------------------------------------------------
------------------------------------------7---------------------
-5/7--10--10----7--10--10--7--10--10--10-----9----7--10--10--7--
----------------------------------------------------------------
----------------------------------------------------------------

-------------------
-------------------
-----9---7--5--7---
-10----------------
-------------------
-------------------

Luego viene algo corto muy rapido que no puedo sacar,
tienes que usar la pulsacion alterna con las mismas
notas del principio, si no no sale ni queriendo...
Despues va subiendo el tono por la
escala mas o menos asi:

-----------------------------------------------------------------
---------------10------------------10-10-10--12-12-12--13-13-13--
-------------------10--10--12--12--------------------------------
-10--10--12------------------------------------------------------
-----------------------------------------------------------------
-----------------------------------------------------------------

-----------12~--15---10---10--13--12--10-------------------------
15-15-15-----------------------------------13--12--10------13--12
-------------------------------------------------------12--------
-----------------------------------------------------------------
-----------------------------------------------------------------
-----------------------------------------------------------------

------------------------------------------------------------------
------13--12--10-----------------------------15--13-12------------
--12--------------12------12-12-14---14--14------------14---14--14
----------------------12------------------------------------------
------------------------------------------------------------------
------------------------------------------------------------------

-----------------------------------13--12---9---[12h15p12]*--17--15
---13--12-----------13--12---15--13-------------------------------
----------14--12--------------------------------------------------
------------------------------------------------------------------
------------------------------------------------------------------
------------------------------------------------------------------

* Pulsacion alterna muchas veces y muy rapido, 12 y 15 es una
aproximación, seguro que el Kolibri toca algunas notas mas,
pero no las puedo sacar.

--13--------------------------------------------------------------
-----10b-12--10b--------------------------------------------------
-----------------12-12-12--14~~>--12------------------------------
-------------------------------------1412--14--12-----------------
----------------------------------------------------14--12--12--12
------------------------------------------------------------------

--------------------------------------------
--------------------------------------------
--------------------------------------------
--------------------------------------------
--12--14~~>---14--12------------------------
----------------------13--12--10--8-8--5~~>-


Am                        G
Coge resina para untarnos poco a poco el cuerpo
Am                       F        G
por si vuelve la ventolera
Am                         G
Y mientras tanto entre los huecos que nos deje el tiempo
Am                   F            G
Deja volar tu cabellera
Am                     G
qu si a nuestra locura vuelven nubes oscuras
Am                              F            G
Nos cogeran frente con frente y codo con codo
Am                   G                Am     F      G
Cada vez mas solos, rodeados de gente...


ESTRIBILLO

F                   C/G                     Am                    Dm
Y bañate en mis ojos, qu se joda el mar que quiera mecerte a su antojo...
F                   C/G              Am
Si no somos nadie, nadie va a encontrar
F                   C/G                     Am                   Dm
Y si a las heridas quiere exarles sal solo va a encontrarse cerrojos
F                   C/G              Am         F      G
Y las cicatrices de la soledad...

F                   C/G                     Am                          Dm
Y bañate en mis ojos, qu se joda el mar que quiera mecerte a su antojo...
F                   C/G              Am
Si no somos nadie, nadie va a encontrar
F                   C/G                     Am                          Dm
Y si a las heridas quiere exarles sal solo va a encontrarse cerrojos
F                   C/G              Am
Y las cicatrices...

Los acordes ya los habian sacado anteriromente, yo he incluido
la introduccion y el solo, que creo queno es poco... jeje.
Cualquier sugerencia, corrección, etc... me la mandais a
kasikiare@hotmail.com :D Un saludo, espero que os sirva. :P





Esta es una transcripcion personal de un usuario de www.letrasyacordes.net - El material contenido en esta pagina es para exclusivo uso privado, quedando prohibida su reproduccion o retransmision, asi como su uso con fines comerciales.


Articulo Destacado: Un video de un muchacho virtuoso

 
Una verdadera joyita lo que hace este muchacho con la guitarra
 
Letras y Acordes punto net, el mejor sitio para encontrar y compartir letras de canciones, con sus correspondientes acordes para guitarra y piano. Registrate en nuestro foro y enterate cómo agregar tus propias transcripciones. No te olvides de votar para calificar la calidad de las letras
Palabras utilizadas para encontrar esta página:
Marea, QUE SE JODA EL VIENTO, letra de QUE SE JODA EL VIENTO de Marea, letras, letra, acordes, canciones, letras de cancion, lyrics, cancion, grupo, banda, cantante, tablatura, partitura, tocar con guitarra, tocar con piano, tocar con bajo, armónica, teclado, bajo, ejecutar, estudiar música
Ver más canciones de :

Marea


 
{c} 2007 / 2011 - letrasyacordes.net