Letras y Acordes |  Acordes |  musica y amigos |  Afinador | 
 
num  A  B  C  D  E  F  G  H  I  J  K  L  M  N  O  P  Q  R  S  T  U  V  W  X  Y  Z  

 

Ando pedo y ella está aquí - Panda  

Links Patrocinados / Anuncios:

Links Patrocinados / Anuncios:

musica y amigos
una_columnados_columnasaumentar_letrareducir_letravista_scrollver_impresionver_impresion_con_acordes | votar: ++++++---- | Puntaje actual: 6.00

Links Patrocinados

Links Patrocinados

calculadora de indice de masa corporal IMC

Links Patrocinados




Diccionario de Nombres



C||--------------------||---------------------------------------------|
C||--------------------||---------------------------------------------|
C||--------------57----||*--------------57--------------57--------57--|
C||--------------57----||*--------------38--------------38--------38--|
C||--------------38----||---50-50-50-50-38--50-50-50-50-38--50-50-38--|
C||--------------38----||---36-36-36-36-38--36-36-36-36-38--36-36-38--|



--------------------------------------------|
--------------------------------------------|
--------------57--------------57--------57--|
--------------38--------------38--------38--|
--50-50-50-50-38--50-50-50-50-38--50-50-38--|
--36-36-36-36-38--36-36-36-36-38--36-36-38--|



--------------------------------------------|
--------------------------------------------|
--------------57--------------57--------57--|
--------------38--------------38--------38--|
--50-50-50-50-38--50-50-50-50-38--50-50-38--|
--36-36-36-36-38--36-36-36-36-38--36-36-38--|



---------------------------------------------------||
---------------------------------------------------||
-----------------------47-47-45-45-43-43-41-41-41-*||
-----------------------47-47-45-45-43-43-41-41-41-*||
--50-50-50-50-38-38-38-47-47-45-45-43-43-41-41-41--||
--36-36-36-36-38-38-38-47-47-45-45-43-43-41-41-41--||



------------------------------------------------|
------------------------------------------------|
--------------57--------------------------------|
--------------38--------------------------------|
--50-50-50-50-38--------------------------------|
--36-36-36-36-38--38-38-38-38-38-38-38-38-38-38-|



|-------------------------------------------|
|-------------------------------------------|
|*--36-36-----36-36-----36-36-----36-36-----|
|*------------------------------------------|
|---57----57--57----57--57----57--57----57--|
|---------38--------38--------38--------38--|



------------------------------------------|
------------------------------------------|
--36-36-----36-36-----36-36-----36-36-----|
------------------------------------------|
--57----57--57----57--57----57--57----57--|
--------38--------38--------38--------38--|



------------------------------------------|
------------------------------------------|
--36-36-----36-36-----36-36-----36-36-----|
------------------------------------------|
--57----57--57----57--57----57--57----57--|
--------38--------38--------38--------38--|



-------------------------------------------||--------------------------------|
-------------------------------------------||--------------------------------|
--36-36-----36-36-----36-36-----36-36-----*||------------------36---36---36--|
------------------------------------------*||--50--50--50------49---49---49--|
--57----57--57----57--57----57--57----57---||--36--36--36--38--57---57---57--|
--------38--------38--------38--------38---||--36--36--36--38--38---38---38--|



|---------------------------------------|--------------------------------------|
|---49----------------------------------|--------------------------------------|
|*--36-36-----36------36-36-----36------|--36-36-----36------36-36-----36------|
|*--57----57--57--57--57----57--57--57--|--57----57--57--57--57----57--57--57--|
|---57----57--57--57--57----57--57--57--|--57----57--57--57--57----57--57--57--|
|---------38------38--------38------38--|--------38------38--------38------38--|



--------------------------------------|---------------------------------------||
--------------------------------------|---------------------------------------||
-----36-----36------36-36-----36------|--36-36-----36------36-36-----36------*||
--57----57--57--57--57----57--57--57--|--57----57--57--57--57----57--57--57--*||
--57----57--57--57--57----57--57--57--|--57----57--57--57--57----57--57--57---||
--------38------38--------38------38--|--------38------38--------38------38---||



---------------------------------------|--------------------------------------|
---------------------------------------|--------------------------------------|
*--36-36-----36------36-36-----36------|--36-36-----36------36-36-----36------|
*--57----57--57--57--57----57--57--57--|--57----57--57--57--57----57--57--57--|
---57----57--57--57--57----57--57--57--|--57----57--57--57--57----57--57--57--|
---------38------38--------38------38--|--------38------38--------38------38--|



--------------------------------------|----------------------------------38---||
--------------------------------------|----------------------------------38---||
--36-36-----36------36-36-----36------|--36-36-----36------36-36-----36--38--*||
--57----57--57--57--57----57--57--57--|----------------------------------38--*||
--57----57--57--57--57----57--57--57--|--57----57--57--57--57----57--57--57---||
--------38------38--------38------38--|--------38------38--------38------38---||



----------------------------|--------------------------------------|
----------------------------|--------------------------------------|
----------------------------|--------------------------------------|
--36----------57------------|--------------------------------------|
--52----38----52------38----|--52----38----------------------------|
--57----------36---36-------|--57----------38-38-38-38-38-38-38-38-|



--------------------------------------------------|
--49----------------------------------------------|
--57----------------------------------------------|
--53-53-53-53-53-53-53-53-53-53-53-53-53-53-53-53-|
--------------------------------------------------|
--36----38----36-36-38----36----38----36-36-38----|



--------------------------------------------------|
--------------------------------------------------|
--------------------------------------------------|
--53-53-53-53-53-53-53-53-53-53-53-53-53-53-53-53-|
--------------------------------------------------|
--36----38----36-36-38----36----38----36-36-38----|



--------------------------------------------------|
--------------------------------------------------|
--------------------------------------------------|
--53-53-53-53-53-53-53-53-53-53-53-53-53-53-53-53-|
--------------------------------------------------|
--36----38----36-36-38----36----38----36-36-38----|



------------------------------------------------|
------------------------------------------------|
------------------------------------------------|
--53-53-53-53-53-53-53-53-53-53-53-53-53-53-----|
------------------------------------------------|
--36----38----36-36-38----36----38----36-36-38--|



--------------------------------------------------|
--49----------------------------------------------|
--57----------------------------------------------|
--53-53-53-53-53-53-53-53-53-53-53-53-53-53-53-53-|
--------------------------------------------------|
--36----38----36-36-38----36----38----36-36-38----|



--------------------------------------------------|
--------------------------------------------------|
--------------------------------------------------|
--53-53-53-53-53-53-53-53-53-53-53-53-53-53-53-53-|
--------------------------------------------------|
--36----38----36-36-38----36----38----36-36-38----|



--------------------------------------------|----------------------------|
--------------------------------------------|----------------------------|
--------------57--------------57--------57--|--------------57---57---57--|
--------------38--------------38--------38--|--------------38---38---38--|
--50-50-50-50-38--50-50-50-50-38--50-50-38--|--50-50-50-50-38---38---38--|
--36-36-36-36-38--36-36-36-36-38--36-36-38--|--36-36-36-36-38---38---38--|



|-------------------------------------------|
|-------------------------------------------|
|*--36-36-----36-36-----36-36-----36-36-----|
|*------------------------------------------|
|---57----57--57----57--57----57--57----57--|
|---------38--------38--------38--------38--|



------------------------------------------|
------------------------------------------|
--36-36-----36-36-----36-36-----36-36-----|
------------------------------------------|
--57----57--57----57--57----57--57----57--|
--------38--------38--------38--------38--|



------------------------------------------|
------------------------------------------|
--36-36-----36-36-----36-36-----36-36-----|
------------------------------------------|
--57----57--57----57--57----57--57----57--|
--------38--------38--------38--------38--|



-------------------------------------------||--------------------------------|
-------------------------------------------||--------------------------------|
--36-36-----36-36-----36-36-----36-36-----*||------------------36---36---36--|
------------------------------------------*||--50--50--50------49---49---49--|
--57----57--57----57--57----57--57----57---||--36--36--36--38--57---57---57--|
--------38--------38--------38--------38---||--36--36--36--38--38---38---38--|



|---------------------------------------|--------------------------------------|
|---49----------------------------------|--------------------------------------|
|*--36-36-----36------36-36-----36------|--36-36-----36------36-36-----36------|
|*--57----57--57--57--57----57--57--57--|--57----57--57--57--57----57--57--57--|
|---57----57--57--57--57----57--57--57--|--57----57--57--57--57----57--57--57--|
|---------38------38--------38------38--|--------38------38--------38------38--|



--------------------------------------|---------------------------------------||
--------------------------------------|---------------------------------------||
-----36-----36------36-36-----36------|--36-36-----36------36-36-----36------*||
--57----57--57--57--57----57--57--57--|--57----57--57--57--57----57--57--57--*||
--57----57--57--57--57----57--57--57--|--57----57--57--57--57----57--57--57---||
--------38------38--------38------38--|--------38------38--------38------38---||



---------------------------------------|--------------------------------------|
---------------------------------------|--------------------------------------|
*--36-36-----36------36-36-----36------|--36-36-----36------36-36-----36------|
*--57----57--57--57--57----57--57--57--|--57----57--57--57--57----57--57--57--|
---57----57--57--57--57----57--57--57--|--57----57--57--57--57----57--57--57--|
---------38------38--------38------38--|--------38------38--------38------38--|



--------------------------------------|----------------------------------38---||
--------------------------------------|----------------------------------38---||
--36-36-----36------36-36-----36------|--36-36-----36------36-36-----36--38--*||
--57----57--57--57--57----57--57--57--|----------------------------------38--*||
--57----57--57--57--57----57--57--57--|--57----57--57--57--57----57--57--57---||
--------38------38--------38------38--|--------38------38--------38------38---||



----------------------------|--------------------------------------|
----------------------------|--------------------------------------|
----------------------------|--------------------------------------|
--36----------57------------|--------------------------------------|
--52----38----52------38----|--52----38----------------------------|
--57----------36---36-------|--57----------38-38-38-38-38-38-38-38-|



|---------------------------------------------------|
|---49----------------------------------------------|
|*--57----------------------------------------------|
|*--53-53-53-53-53-53-53-53-53-53-53-53-53-53-53-53-|
|---------------------------------------------------|
|---36----38----36-36-38----36----38----36-36-38----|



--------------------------------------------------|
--------------------------------------------------|
--------------------------------------------------|
--53-53-53-53-53-53-53-53-53-53-53-53-53-53-53-53-|
--------------------------------------------------|
--36----38----36-36-38----36----38----36-36-38----|



--------------------------------------------------|
--------------------------------------------------|
--------------------------------------------------|
--53-53-53-53-53-53-53-53-53-53-53-53-53-53-53-53-|
--------------------------------------------------|
--36----38----36-36-38----36----38----36-36-38----|



------------------------------------------------|
------------------------------------------------|
------------------------------------------------|
--53-53-53-53-53-53-53-53-53-53-53-53-53-53-----|
------------------------------------------------|
--36----38----36-36-38----36----38----36-36-38--|



--------------------------------------------------|
--49----------------------------------------------|
--57----------------------------------------------|
--53-53-53-53-53-53-53-53-53-53-53-53-53-53-53-53-|
--------------------------------------------------|
--36----38----36-36-38----36----38----36-36-38----|



--------------------------------------------------|
--------------------------------------------------|
--------------------------------------------------|
--53-53-53-53-53-53-53-53-53-53-53-53-53-53-53-53-|
--------------------------------------------------|
--36----38----36-36-38----36----38----36-36-38----|



--------------------------------------------|----------------------------|
--------------------------------------------|----------------------------|
--------------57--------------57--------57--|--------------57---57---57--|
--------------38--------------38--------38--|--------------38---38---38--|
--50-50-50-50-38--50-50-50-50-38--50-50-38--|--50-50-50-50-38---38---38--|
--36-36-36-36-38--36-36-36-36-38--36-36-38--|--36-36-36-36-38---38---38--|


                                                     3x
|---36----------36----------36----------36-----------||
|---36----------36----------36----------36-----------||
|*--------------------------------------------------*||
|*-----------------------------------------------38-*||
|---------------------------------------38-38-38-38--||
|---38-38-38-38-38-38-38-38-38-38-38-38-38-38-38-38--||



--36----57----36------57----|--36----57----36------57----|
--36----------36------------|--36----------36------------|
----------------------------|----------------------------|
----------------------------|----------------------------|
-------------------38-------|-------------------38-------|
--------38---------38-38----|--------38---------38-38----|



--36----57----36------57----|--36----57----------------------------|
--36----------36------------|--36----------------------------------|
----------------------------|--------------------------------------|
----------------------------|--------------------------------------|
-------------------38-------|--------------------------------------|
--------38---------38-38----|--------38----38-38-38-38-38-38-38-38-|



--57----57------57------57------|--57----57------57------57------|
--------------------------------|--------------------------------|
--------------------------------|--------------------------------|
--------------------------------|--------------------------------|
--36---------36-36----------36--|--36---------36-36----------36--|
--36----38---36-36--36--38--36--|--36----38---36-36--36--38--36--|



--57----57------57------57------|--57----57----------------|
--------------------------------|--------------38----38----|
--------------------------------|--------------38----38----|
--------------------------------|--------------38----38----|
--36---------36-36----------36--|--36----------38----38----|
--36----38---36-36--36--38--36--|--36----38----38----38----|



--57--36-36-57--36-36-57--36-36-57--36-36-|
------36-36-----36-36-----36-36-----36-36-|
------------------------------------------|
------------------------------------------|
--38--------38--------38--------38--------|
--38--------38--------38--------38--------|



--57--36-36-57--36-36-57--36-36-57--36-36-|
------36-36-----36-36-----36-36-----36-36-|
------------------------------------------|
------------------------------------------|
--38--------38--------38--------38--------|
--38--------38--------38--------38--------|



--57--36-36-57--36-36-57--36-36-57--36-36-|
------36-36-----36-36-----36-36-----36-36-|
------------------------------------------|
------------------------------------------|
--38--------38--------38--------38--------|
--38--------38--------38--------38--------|



--57--36-36-57--36-36-57--36-36-57--36-36-|
------36-36-----36-36-----36-36-----36-36-|
------------------------------------------|
------------------------------------------|
--38--------38--------38--------38--------|
--38--------38--------38--------38--------|



--57----------------------------------------|
--49----------------------------------------|
--57----------------------------------------|
--49----------------------------------------|
--------------------------------------------|
--------38-38-38-38-38-38-38-38-38-38-38-38-|



--------------------------------------------------|
--------------------------------------------------|
--------------------------------------------------|
--------------------------------------------------|
--------------------------38-38-38-38-38-38-38-38-|
--38-38-38-38-38-38-38-38-38-38-38-38-38-38-38-38-|



|---------------------------------------------------|
|---49----------------------------------------------|
|*--57----------------------------------------------|
|*--53-53-53-53-53-53-53-53-53-53-53-53-53-53-53-53-|
|---------------------------------------------------|
|---36----38----36-36-38----36----38----36-36-38----|



--------------------------------------------------|
--------------------------------------------------|
--------------------------------------------------|
--53-53-53-53-53-53-53-53-53-53-53-53-53-53-53-53-|
--------------------------------------------------|
--36----38----36-36-38----36----38----36-36-38----|



--------------------------------------------------|
--------------------------------------------------|
--------------------------------------------------|
--53-53-53-53-53-53-53-53-53-53-53-53-53-53-53-53-|
--------------------------------------------------|
--36----38----36-36-38----36----38----36-36-38----|



-------------------------------------------------||
-------------------------------------------------||
------------------------------------------------*||
--53-53-53-53-53-53-53-53-53-53-53-53-53-53-----*||
-------------------------------------------------||
--36----38----36-36-38----36----38----36-36-38---||



--------------------------------------------------|
--49----------------------------------------------|
--57----------------------------------------------|
--53-53-53-53-53-53-53-53-53-53-53-53-53-53-53-53-|
--------------------------------------------------|
--36----38----36-36-38----36----38----36-36-38----|



--------------------------------------------------|
--------------------------------------------------|
--------------------------------------------------|
--53-53-53-53-53-53-53-53-53-53-53-53-53-53-53-53-|
--------------------------------------------------|
--36----38----36-36-38----36----38----36-36-38----|



--------------------------------------------------|
--------------------------------------------------|
--------------------------------------------------|
--53-53-53-53-53-53-53-53-53-53-53-53-53-53-53-53-|
--------------------------------------------------|
--36----38----36-36-38----36----38----36-36-38----|



------------------------------------------------|
------------------------------------------------|
------------------------------------------------|
--53-53-53-53-53-53-53-53-53-53-53-53-53-53-----|
------------------------------------------------|
--36----38----36-36-38----36----38----36-36-38--|



--------------------------------------------------|
--49----------------------------------------------|
--57----------------------------------------------|
--53-53-53-53-53-53-53-53-53-53-53-53-53-53-53-53-|
--------------------------------------------------|
--36----38----36-36-38----36----38----36-36-38----|



--------------------------------------------------|
--------------------------------------------------|
--------------------------------------------------|
--53-53-53-53-53-53-53-53-53-53-53-53-53-53-53-53-|
--------------------------------------------------|
--36----38----36-36-38----36----38----36-36-38----|



--------------------------------------------|----------------------------------|
--------------------------------------------|----------------------------------|
--------------57--------------57--------57--|----------------57---57---57--57--|
--------------38--------------38--------38--|----------------38---38---38--38--|
--50-50-50-50-38--50-50-50-50-38--50-50-38--|--50-50-50-50---38---38---38--38--|
--36-36-36-36-38--36-36-36-36-38--36-36-38--|--36-36-36-36---38---38---38--38--|



------------------|------------------||
------------------|------------------||
------------------|------------------||
------------------|------------------||
------------------|------------------||
------------------|------------------||





Esta es una transcripcion personal de un usuario de www.letrasyacordes.net - El material contenido en esta pagina es para exclusivo uso privado, quedando prohibida su reproduccion o retransmision, asi como su uso con fines comerciales.
Poné el link en tu página o en foros!!!!
Para MySpace:
Para Foros:
musica y amigos
Compartí con tus amigos esta canción en tu Facebook
Articulo Destacado: Mantenimiento de la Guitarra - Cuerdas

 

 
fuente
 
Letras y Acordes punto net, el mejor sitio para encontrar y compartir letras de canciones, con sus correspondientes acordes para guitarra y piano. Registrate en nuestro foro y enterate cómo agregar tus propias transcripciones. No te olvides de votar para calificar la calidad de las letras
Palabras utilizadas para encontrar esta página:
Panda, Ando pedo y ella está aquí, letra de Ando pedo y ella está aquí de Panda, letras, letra, acordes, canciones, letras de cancion, lyrics, cancion, grupo, banda, cantante, tablatura, partitura, tocar con guitarra, tocar con piano, tocar con bajo, armónica, teclado, bajo, ejecutar, estudiar música
Ver más canciones de :

Panda


 
{c} 2007 / 2011 - letrasyacordes.net