Letras y Acordes |  Acordes |  musica y amigos |  Afinador | 
 
num  A  B  C  D  E  F  G  H  I  J  K  L  M  N  O  P  Q  R  S  T  U  V  W  X  Y  Z  

 

Las puertas del cielo - Saratoga  

Links Patrocinados / Anuncios:

una_columnados_columnasaumentar_letrareducir_letravista_scrollver_impresionver_impresion_con_acordes | votar: ++++++---- | Puntaje actual: 6.00

Links Patrocinados

Links Patrocinados

calculadora de indice de masa corporal IMC

Links Patrocinados




Diccionario de Nombres



Weno,otra tablatura más de este gran bajista
esta es bastante facilica (recordad que está afinada
mi bemol)

- Intro y Final
E/-------------------------------------------------
A/-----------2---3---2---0---3---2-----------------
D/-------------------------------------------------
G/-0235320-----0---0---0---0---0-------------------

- Estrofa (aqui hare lo de las tres notas seguidas
es decir,que si veis 3 notas iguales muy juntas,se
ha cen en un solo tpo las tres)
E/---------------------------------
A/---------------------------------
D/---------------------------------
G/-000-000-000-000-000-000-000-000-

E/---------------------------------
A/---------------------------------
D/---------------------------------
G/-111-111-111-111-111-111-111-111-

- Prestribillo

E/-------------------------------------------------
A/------------3-2------------------5-3-------------
D/-0--2-3-0-------3-5---0--2-3-0-------5-3---------
G/-------------------------------------------------

E/---------------------------------
A/---------------------------------
D/-222-222-222-222-----------------
G/-----------------333-333-333-333-
                                     X 2
E/---------------------------------
A/---------------------------------
D/-444-444-444-444-----------------
G/-----------------333-333-333-333-

E/---------------
A/-----4-------4-
D/---------------
G/-2-------2-----

- Estribillo (a veces es con 3 notas por tpo
y otras solo uno,yo pongo el segundo caso,mirad
vosotros cuando cambia,no es muy dificil sacarlo)

E/---------------------------------
A/-2---0-----------2---0-----------
D/---------3-2-0-----------3-2-0---
G/---------------3---------------3-

E/---------------------------------
A/-2---0-------------------2-------
D/---------3-2-0---0---2-----------
G/---------------3-----------------

Weno,aqui teneis.Es mmuy facil,ideal para
empezar con saratoga





Esta es una transcripcion personal de un usuario de www.letrasyacordes.net - El material contenido en esta pagina es para exclusivo uso privado, quedando prohibida su reproduccion o retransmision, asi como su uso con fines comerciales.


Articulo Destacado: Un video de un muchacho virtuoso

 
Una verdadera joyita lo que hace este muchacho con la guitarra
 
Letras y Acordes punto net, el mejor sitio para encontrar y compartir letras de canciones, con sus correspondientes acordes para guitarra y piano. Registrate en nuestro foro y enterate cómo agregar tus propias transcripciones. No te olvides de votar para calificar la calidad de las letras
Palabras utilizadas para encontrar esta página:
Saratoga, Las puertas del cielo, letra de Las puertas del cielo de Saratoga, letras, letra, acordes, canciones, letras de cancion, lyrics, cancion, grupo, banda, cantante, tablatura, partitura, tocar con guitarra, tocar con piano, tocar con bajo, armónica, teclado, bajo, ejecutar, estudiar música
Ver más canciones de :

Saratoga


 
{c} 2007 / 2011 - letrasyacordes.net