Letras y Acordes |  Acordes |  musica y amigos |  Afinador | 
 
num  A  B  C  D  E  F  G  H  I  J  K  L  M  N  O  P  Q  R  S  T  U  V  W  X  Y  Z  

 

Se Viene - Bersuit Vergarabat  

Links Patrocinados / Anuncios:

una_columnados_columnasaumentar_letrareducir_letravista_scrollver_impresionver_impresion_con_acordes | votar: ++++++---- | Puntaje actual: 6.00

Links Patrocinados

Links Patrocinados

calculadora de indice de masa corporal IMC

Links Patrocinados




Diccionario de Nombres



intro y estrofas:

  Am                G       E
|-x-5-x-5-x-5-x-5-x-3-x-3-x-0-x-0---|
|-x-5-x-5-x-5-x-5-x-3-x-3-x-0-x-0---|
|-x-5-x-5-x-5-x-5-x-4-x-4-x-1-x-1---|
|-x-7-x-7-x-7-x-7-x-5-x-5-x-2-x-2---| X2
|-x-7-x-7-x-7-x-7-x-5-x-5-x-2-x-2---|
|-x-5-x-5-x-5-x-5-x-3-x-3-x-0-x-0---|


  Am                G       E     Dm      E       Am
|-x-5-x-5-x-5-x-5-x-3-x-3-x-0-x-0-5-5-5-5-0-0-0-0-5--|
|-x-5-x-5-x-5-x-5-x-3-x-3-x-0-x-0-6-6-6-6-0-0-0-0-5--|
|-x-5-x-5-x-5-x-5-x-4-x-4-x-1-x-1-7-7-7-7-1-1-1-1-6--|
|-x-7-x-7-x-7-x-7-x-5-x-5-x-2-x-2-7-7-7-7-2-2-2-2-7--|
|-x-7-x-7-x-7-x-7-x-5-x-5-x-2-x-2-5-5-5-5-2-2-2-2-7--|
|-x-5-x-5-x-5-x-5-x-3-x-3-x-0-x-0-5-5-5-5-0-0-0-0-5--|


se viene el estallido, se viene el estallido
de mi guitarra, de tu gobierno, tambien

riff1:
|-----------------
|-----------------
|--7-5------------
|------7-5--------
|----------5-6-7--
|-----------------

se viene el estallido, se viene el estallido
de mi guitarra, de tu gobierno, tambien


Am                     Dm                              en esta parte suena mas solido el bajo:
  y si te viene alguna duda,                            ||----------------|------------|  |
                   Am                                   ||-------3--3-----|----3-3-----|X2|X2
veni agarrala que está dura                             ||--5--5------5---|--5----5----|  |
                        E        Am       riff1         ||--------------5-|---------0--|  |

si esto no es una dictadura, que es, que es


                     rv1                    rv1
Se viene el estallido, se viene el estallido,
              rv2             rv3      rv4
de mi guitarra, de tu gobierno, también

                     rv5                    rv1
se viene el estallido, se viene el estallido
              rv2             rv3      rv4
de mi guitarra, de tu gobierno, tambien

y si te viene alguna duda che
veni agarrala que está dura
si esto no es una dictadura, que es, que es

    riff1
vamos carajo!

riff2
|--------------------
|--------------------
|--------------------
|------5-------------
|--7-7---7-5---5-7---
|------------7-------

con acordes de intro y riff2

se viene el estallido, se viene el estallido
              rv2             rv3      rv6
de mi garganta, de tu infierno, tambien

                     rv7                    rv7
se viene el estallido, se viene el estallido
              rv2             rv3     rv8
de mi garganta, de tu infierno, tambien

y ya no hay ninguna duda,
se esta pudriendo esta basura
fisura ya la dictadura
del rey

Dm           e         Am
  Volvio la mala, fue corta la primavera
Dm        e          Am
  cerdos miserables, comiendo lo que nos queda
Dm              e              Am
  se llevan la noche, nuestra ultima alegria
Dm                 e    E                   Am
  gente poniendo huevo, para salir de esta ruina

solo:
|----------------------------------------------------------
|----------------------------------------------------------
|----5--7--7b(9)r(7)-5------------5--7--7b(9)r(7)-5---5----
|--7-------------------7~-------7-------------------7------
|----------------------------------------------------------
|----------------------------------------------------------

|-------------------------------------------------------------------------------
|--------------------------------------------------------5-5~-5----5-5~-5-------
|----5--7--7b(9)r(7)-5-7-----------5--7--7b(9)r(7)-5---7---------7--------------
|--7----------------------------7-----------------------------------------------
|-------------------------------------------------------------------------------
|-------------------------------------------------------------------------------

                     rv7                    rv7
se viene el estallido, se viene el estallido
              rv2             rv3      rv9
de mi guitarra, de tu gobierno, tambien

rv10                   rv10
se viene el estallido, se viene el estallido
              rv2             rv3      rv8
de mi guitarra, de tu gobierno, tambien

y ya no hay ninguna duda,
se esta pudriendo esta basura
si esto no es una dictadura, que es, que es

fin
|--------------------
|-------5------------
|-----5---7-5-----7--
|-5-7---------7---7--
|--------------------
|--------------------


riffs de vientos: estas secciones son tocadas por vientos en el cd 'libertinaje'
y en 'de la cabeza', pero algunas de ellas son tocadas por la guitarra o el teclado
en versiones en vivo

   rv1
|--------------------
|--------------------
|--5-5-----5-5-------
|------7-5-----7-----
|--------------------
|--------------------
  rv2     rv3        rv4               rv5     rv10
|-------|--------|--------------    |-----    |-----------------
|-------|--------|--------------    |-----    |-----------------
|----5\-|-----7\-|---5----------    |--5~-    |--------------5--
|-7-----|--7-----|------7--5--7-    |-----    |--7-7-7-7-5-7----
|-------|--------|--------------    |-----    |-----------------
|-------|--------|--------------    |-----    |-----------------

rv6                    rv7                rv8                rv9
|-----------------    |--------------    |--------------    |---------
|-----------------    |--------------    |--------------    |---------
|--7-7-7-5---5-7--    |--------5-----    |--7--6--5-----    |--5-7\---
|----------7------    |--7-7-7---7---    |--------------    |---------
|-----------------    |--------------    |--------------    |---------
|-----------------    |--------------    |--------------    |---------

de yapa la tab del bajo:

primera estrofa
|--------|--------|--------------|--5---------|
|--------|--------|--------------|----7-------|
|--------|--------|--7-7-7---7---|------5-6-7-|
|--0--5--|--0--5--|--------0-----|------------|

  se viene...
|-----------------------------------------------------------------------------
|-----------------------------------------------------------------------------
|----------------------------------------7---5-5---7----5-5---7---5---5--7----
|-5--0-3-0--3-5--0-3-0--3-5--0-3-0--3-5----0-----0----0-----0-------7---------

 y si te viene...
|--------------------------------------|
|------3-3--------3-3---------3-3------|x2
|-5--5-----5----5-----5----5------5----|
|------------5----------0-----------0--|

a partir de 4a estrofa
|------------------|----|-------------------|--
|------------------|-X4-|------5------------|X2
|------3-----------|----|--7-7---7-5---5-7--|--
|--5-5---5-3-0-3-5-|----|------------5------|--

... tambien
|-------------|
|-------------|
|--7-6-5------|
|-------------|

volvio la mala...
|---------------------------------------------|
|---------------------------------------------|
|-5-7----5-7-----5-5-7-7-------5-5-7-7-----7--|
|-----5------5-----------5-5----------5-5-----|

cualquier cosa escriban





Esta es una transcripcion personal de un usuario de www.letrasyacordes.net - El material contenido en esta pagina es para exclusivo uso privado, quedando prohibida su reproduccion o retransmision, asi como su uso con fines comerciales.


Articulo Destacado: Un video de un muchacho virtuoso

 
Una verdadera joyita lo que hace este muchacho con la guitarra
 
Letras y Acordes punto net, el mejor sitio para encontrar y compartir letras de canciones, con sus correspondientes acordes para guitarra y piano. Registrate en nuestro foro y enterate cómo agregar tus propias transcripciones. No te olvides de votar para calificar la calidad de las letras
Palabras utilizadas para encontrar esta página:
Bersuit Vergarabat, Se Viene, letra de Se Viene de Bersuit Vergarabat, letras, letra, acordes, canciones, letras de cancion, lyrics, cancion, grupo, banda, cantante, tablatura, partitura, tocar con guitarra, tocar con piano, tocar con bajo, armónica, teclado, bajo, ejecutar, estudiar música
Ver más canciones de :

Bersuit Vergarabat


 
{c} 2007 / 2011 - letrasyacordes.net