Letras y Acordes |  Acordes |  musica y amigos |  Afinador | 
 
num  A  B  C  D  E  F  G  H  I  J  K  L  M  N  O  P  Q  R  S  T  U  V  W  X  Y  Z  

 

BOHEMIO DE AFICIÓN - Bertín y Lalo  

Links Patrocinados / Anuncios:

una_columnados_columnasaumentar_letrareducir_letravista_scrollver_impresionver_impresion_con_acordes | votar: +++++++--- | Puntaje actual: 7.50

Links Patrocinados

Links Patrocinados

calculadora de indice de masa corporal IMC

Links Patrocinados




Diccionario de Nombres



e|-7-9--7-7-7--11-9---7-11-11--9--9--12-|
B|-9-10-9-9-9--12-10--9-12-12--10-10-12-|
G|--------------------------------------|
D|--------------------------------------|
A|--------------------------------------|
E|--------------------------------------|


e|-7-9--7-7-7--11-9---7-11-11--9--9--12-|
B|-9-10-9-9-9--12-10--9-12-12--10-10-12-|
G|--------------------------------------|
D|--------------------------------------|
A|--------------------------------------|
E|--------------------------------------|


e|-7-7-5-4-5-7--7-9--7-7-7-11-9--|
B|-9-9-7-5-7-9--9-10-9-9-9-12-10-|
G|-------------------------------|
D|-------------------------------|
A|-------------------------------|
E|-------------------------------|


e|-9--9--7-9--7-9--7--7-7-7-5-7-5--5-5-5-4-5-4-|
B|-10-10-9-10-9-10-9--9-9-9-7-9-7--7-7-7-5-7-5-|
G|---------------------------------------------|
D|---------------------------------------------|
A|---------------------------------------------|
E|---------------------------------------------|


e|----------------------------------|
B|----------------------------------|
G|-------------1--1-1-2-4--4-2------|
D|-------1-2-4------------------4-2-|
A|-2-2-4----------------------------|
E|----------------------------------|


  E                                B7
Alejate de mi no quiero que me quieras
                                  E
yo soy otoño gris y tu eres primavera
                       E7           A
tu llevas en tu ser pureza de a de veras
   E             B7               E
en cambio yo me pierdo con cualquiera

                             B7
alejate de mi en nada te convengo
                                    E
un mundo de ilucion es todo lo que tengo
                       E7          A
infiel en el amor lo traigo de abolengo
     E         B7            E
rompiendo corazones me entretengo

                B7                   E
yo todo lo que tengo lo doy por las damas
                 B7               E
y nunca me entretengo a ver si me aman
                E7                 A
les doy mi corazon tan solo una semana
                E                  B7
y luego sin rencores dejo que se alejen
              E
si les da la gana

               B7                E
me quito la camisa por un buen amigo
               B7                 E
hoy vivo millonario mañana un mendigo
                       E7          A
mi dicha o mi dolor a nadie se lo digo
               E                   B7
por eso nadie sabe cuando estoy gozando
                E
cuando estoy herido


/ donde se oye el requinto por segunda vez, unas pisadas
                       son diferentes


e|-7-9--7-7-7--11-9---7-11-11--9--9--7-|
B|-9-10-9-9-9--12-10--9-12-12--10-10-9-|
G|-------------------------------------|
D|-------------------------------------|
A|-------------------------------------|
E|-------------------------------------|


e|-7-9--7-7-7--11-9---7-11-11--9--9--7-|
B|-9-10-9-9-9--12-10--9-12-12--10-10-9-|
G|-------------------------------------|
D|-------------------------------------|
A|-------------------------------------|
E|-------------------------------------|


e|-7-7-5-4-5-7--7-9--7-7-7-11-9--|
B|-9-9-7-5-7-9--9-10-9-9-9-12-10-|
G|-------------------------------|
D|-------------------------------|
A|-------------------------------|
E|-------------------------------|


e|-9--9--7-9--7-9--7--7-7-7-5-7-5--5-5-5-4-5-4-|
B|-10-10-9-10-9-10-9--9-9-9-7-9-7--7-7-7-5-7-5-|
G|---------------------------------------------|
D|---------------------------------------------|
A|---------------------------------------------|
E|---------------------------------------------|


e|---------------------------------|
B|--------------------------2--4-5-|
G|-------------1--1-1-2-4-4--------|
D|-------1-2-4---------------------|
A|-2-2-4---------------------------|
E|---------------------------------|

                E                B7
bohemio de aficion amigo de las farras
                               E
de noche mi timon navega sin amarras
                          E7             A
el antro de lo peor me atrapa entre sus garras
        E       B7         E
si hay vino, mujeres y guitarras





Esta es una transcripcion personal de un usuario de www.letrasyacordes.net - El material contenido en esta pagina es para exclusivo uso privado, quedando prohibida su reproduccion o retransmision, asi como su uso con fines comerciales.


Articulo Destacado: Un video de un muchacho virtuoso

 
Una verdadera joyita lo que hace este muchacho con la guitarra
 
Letras y Acordes punto net, el mejor sitio para encontrar y compartir letras de canciones, con sus correspondientes acordes para guitarra y piano. Registrate en nuestro foro y enterate cómo agregar tus propias transcripciones. No te olvides de votar para calificar la calidad de las letras
Palabras utilizadas para encontrar esta página:
Bertín y Lalo, BOHEMIO DE AFICIÓN, letra de BOHEMIO DE AFICIÓN de Bertín y Lalo, letras, letra, acordes, canciones, letras de cancion, lyrics, cancion, grupo, banda, cantante, tablatura, partitura, tocar con guitarra, tocar con piano, tocar con bajo, armónica, teclado, bajo, ejecutar, estudiar música
Ver más canciones de :

Bertín y Lalo


 
{c} 2007 / 2011 - letrasyacordes.net