Letras y Acordes |  Acordes |  musica y amigos |  Afinador | 
 
num  A  B  C  D  E  F  G  H  I  J  K  L  M  N  O  P  Q  R  S  T  U  V  W  X  Y  Z  

 

POR MI MURIó - Hillsong United  

Links Patrocinados / Anuncios:

Links Patrocinados / Anuncios:

musica y amigos
una_columnados_columnasaumentar_letrareducir_letravista_scrollver_impresionver_impresion_con_acordes | votar: +++++++++- | Puntaje actual: 9.38

Links Patrocinados

Links Patrocinados

calculadora de indice de masa corporal IMC

Links Patrocinados




Diccionario de Nombres

Saludos... Esta traducción es de autorizada de la web de Hillsong.com
Con este link podran conocer los pasos para descargar las traducciones
gratis http://www2.hillsong.com/espanol/

POR MI MURIÒ es la traducción original del titulo de la canción

INTRO:

E||------------------------------------------------|
B||--------12-10-----12-10-----12-10---10----------|
G||-----11-------12--------11---------------9------|
D||--12------------------------------11--12--------|
A||------------------------------------------------|
E||------------------------------------------------|

Versos:
(Van a usar el INTRO pero ponganle
atencion para agarrarle el tiempo)

Verso 1
La sangre de Jesús me redimió
Me perdonó y libertad me dio
Tu majestad está dentro de mí
Por siempre creo en ti, por siempre creo en ti

Verso 2
Me inundas con justicia y amor
Tu gracia cautivó mi corazón
Tu espíritu me guía a la verdad
                                  G    G G G G G...
Tu amor no fallará, tu amor no fallará

CORO:

E||------5-5-----5-5---------------------------------|
B||----------------------5-5-----5-------------------|
G||----7--7----7--7----7--7----7--7------------------|
D||--7---------------4-------5-----------------------|
A||----------7---------------------------------------|
E||--------------------------------------------------|

Despues de tocarlo 4 veces es cuando entran todos los
instrumentos... (La 1ra guitarra igual sigue haceiendo
los arpegios anteriores)

D              A
Por amor Dios dio
Bm            G
Su hijo único Jesús
D         A
Por mí murió
Bm                   G
Me dio esperanza y salvación
D        A
En mi lugar
Bm                   G
Su vida entregó en la cruz
D           A
Me amó, me amó
Bm            G
Aun sin merecerlo

SOLO:
(D A Bm G)

E||-------10----10----9----10----------10--------------|
B||--7s10----10----10---10----10--7-10----7--8---10----|
G||--------------------------------------------7----7--|
D||----------------------------------------------------|
A||----------------------------------------------------|
E||----------------------------------------------------|

E||-------------9---10------12----14-------15----17----|
B||--------7-----------8s10----10----10s12----12-------|
G||--7-7h9---7s9--9------------------------------------|
D||----------------------------------------------------|
A||----------------------------------------------------|
E||----------------------------------------------------|

E||-----------14---------------------10-------10-------|
B||--15-15h17----17-14----15-------10--10---10--10-----|
G||--------------------14----14--11-------12-----------|
D||----------------------------------------------------|
A||----------------------------------------------------|
E||----------------------------------------------------|

E||-----------14----------------0----------------------|
B||---------------14--15----7-------8--7---------------|
G||--11-12s14---14--14--14----7---7--------------------|
D||----------------------------------------------------|
A||----------------------------------------------------|
E||----------------------------------------------------|

VERSO 2:
(Esta parte aganla con unas improvisaciones)

            G              D
Me inundas con justicia y amor
            A             Bm
Tu gracia cautivó mi corazón
            G              D
Tu espíritu me guía a la verdad
                A                   G G G G G..
Tu amor no fallará, tu amor no fallará


Coro:
(Se toca como la 1ra vez)


Bueno con mucha practica les va a quedar calidad...
DIOS LES BENDIGA
Heeey esta es mi primera transcripción, espero que les sirva!
Cualquier correcion este es mi correo david_david13@hotmail.com

Saludos a todos los miembros de la Iglesia "Roca FUerte"
VIVA VENEZUELA!!!!!!!




Esta es una transcripcion personal de un usuario de www.letrasyacordes.net - El material contenido en esta pagina es para exclusivo uso privado, quedando prohibida su reproduccion o retransmision, asi como su uso con fines comerciales.
Poné el link en tu página o en foros!!!!
Para MySpace:
Para Foros:
musica y amigos
Compartí con tus amigos esta canción en tu Facebook
Articulo Destacado: Un video de un muchacho virtuoso

 
Una verdadera joyita lo que hace este muchacho con la guitarra
 
Letras y Acordes punto net, el mejor sitio para encontrar y compartir letras de canciones, con sus correspondientes acordes para guitarra y piano. Registrate en nuestro foro y enterate cómo agregar tus propias transcripciones. No te olvides de votar para calificar la calidad de las letras
Palabras utilizadas para encontrar esta página:
Hillsong United, POR MI MURIó, letra de POR MI MURIó de Hillsong United, letras, letra, acordes, canciones, letras de cancion, lyrics, cancion, grupo, banda, cantante, tablatura, partitura, tocar con guitarra, tocar con piano, tocar con bajo, armónica, teclado, bajo, ejecutar, estudiar música
Ver más canciones de :

Hillsong United


 
{c} 2007 / 2011 - letrasyacordes.net